ISO-10303-21;
HEADER;
FILE_DESCRIPTION (( 'STEP AP203' ),
    '1' );
FILE_NAME ('700970_c_1.STEP',
    '2023-05-12T03:56:18',
    ( '' ),
    ( '' ),
    'SwSTEP 2.0',
    'SolidWorks 2014',
    '' );
FILE_SCHEMA (( 'CONFIG_CONTROL_DESIGN' ));
ENDSEC;

DATA;
#1 = DIRECTION ( 'NONE',  ( 0.0000000000000000000, 0.0000000000000000000, -1.000000000000000000 ) ) ;
#2 = ORIENTED_EDGE ( 'NONE', *, *, #6, .F. ) ;
#3 = PERSON_AND_ORGANIZATION ( #226, #47 ) ;
#4 = VECTOR ( 'NONE', #112, 1000.000000000000000 ) ;
#5 = ORIENTED_EDGE ( 'NONE', *, *, #236, .F. ) ;
#6 = EDGE_CURVE ( 'NONE', #228, #8, #104, .T. ) ;
#7 = PERSON_AND_ORGANIZATION ( #226, #47 ) ;
#8 = VERTEX_POINT ( 'NONE', #105 ) ;
#9 = CC_DESIGN_PERSON_AND_ORGANIZATION_ASSIGNMENT ( #29, #87, ( #117 ) ) ;
#10 = ADVANCED_FACE ( 'NONE', ( #152 ), #70, .F. ) ;
#11 = CALENDAR_DATE ( 2023, 11, 5 ) ;
#12 = LINE ( 'NONE', #192, #169 ) ;
#13 = ORIENTED_EDGE ( 'NONE', *, *, #82, .F. ) ;
#14 = PERSON_AND_ORGANIZATION ( #226, #47 ) ;
#15 = DIRECTION ( 'NONE',  ( 0.0000000000000000000, 1.000000000000000000, 0.0000000000000000000 ) ) ;
#16 = PLANE ( 'NONE',  #214 ) ;
#17 = VECTOR ( 'NONE', #56, 1000.000000000000000 ) ;
#18 = APPLICATION_CONTEXT ( 'configuration controlled 3d designs of mechanical parts and assemblies' ) ;
#19 = EDGE_LOOP ( 'NONE', ( #33, #50, #101, #115 ) ) ;
#20 = SECURITY_CLASSIFICATION_LEVEL ( 'unclassified' ) ;
#21 = PLANE ( 'NONE',  #72 ) ;
#22 = DIRECTION ( 'NONE',  ( 1.000000000000000000, -0.0000000000000000000, 0.0000000000000000000 ) ) ;
#23 = ORIENTED_EDGE ( 'NONE', *, *, #185, .F. ) ;
#24 = DIRECTION ( 'NONE',  ( 0.0000000000000000000, 0.0000000000000000000, -1.000000000000000000 ) ) ;
#25 = PRODUCT_DEFINITION ( 'UNKNOWN', '', #30, #155 ) ;
#26 = COORDINATED_UNIVERSAL_TIME_OFFSET ( 8, 0, .BEHIND. ) ;
#27 = FACE_OUTER_BOUND ( 'NONE', #211, .T. ) ;
#28 = DATE_AND_TIME ( #11, #224 ) ;
#29 = PERSON_AND_ORGANIZATION ( #226, #47 ) ;
#30 = PRODUCT_DEFINITION_FORMATION_WITH_SPECIFIED_SOURCE ( 'ANY', '', #117, .NOT_KNOWN. ) ;
#31 = LOCAL_TIME ( 20, 56, 18.00000000000000000, #210 ) ;
#32 = VECTOR ( 'NONE', #145, 1000.000000000000000 ) ;
#33 = ORIENTED_EDGE ( 'NONE', *, *, #150, .F. ) ;
#34 = AXIS2_PLACEMENT_3D ( 'NONE', #81, #83, #212 ) ;
#35 = DIRECTION ( 'NONE',  ( -0.0000000000000000000, -0.0000000000000000000, -1.000000000000000000 ) ) ;
#36 = APPROVAL ( #229, 'UNSPECIFIED' ) ;
#37 = ADVANCED_FACE ( 'NONE', ( #225 ), #16, .F. ) ;
#38 = VECTOR ( 'NONE', #128, 1000.000000000000000 ) ;
#39 = PRODUCT_DEFINITION_SHAPE ( 'NONE', 'NONE',  #25 ) ;
#40 = DATE_TIME_ROLE ( 'creation_date' ) ;
#41 = CARTESIAN_POINT ( 'NONE',  ( -5000.000000000000000, 600.0000000000001100, 0.0000000000000000000 ) ) ;
#42 = UNCERTAINTY_MEASURE_WITH_UNIT (LENGTH_MEASURE( 1.000000000000000100E-005 ), #136, 'distance_accuracy_value', 'NONE');
#43 = CARTESIAN_POINT ( 'NONE',  ( -5000.000000000000000, -599.9999999999998900, 3.000000000000000000 ) ) ;
#44 = CC_DESIGN_APPROVAL ( #159, ( #30 ) ) ;
#45 = VECTOR ( 'NONE', #73, 1000.000000000000000 ) ;
#46 = CC_DESIGN_APPROVAL ( #36, ( #25 ) ) ;
#47 = ORGANIZATION ( 'UNSPECIFIED', 'UNSPECIFIED', '' ) ;
#48 = PRODUCT_RELATED_PRODUCT_CATEGORY ( 'detail', '', ( #117 ) ) ;
#49 = PLANE ( 'NONE',  #34 ) ;
#50 = ORIENTED_EDGE ( 'NONE', *, *, #185, .T. ) ;
#51 = ORIENTED_EDGE ( 'NONE', *, *, #142, .T. ) ;
#52 = CC_DESIGN_PERSON_AND_ORGANIZATION_ASSIGNMENT ( #62, #237, ( #30 ) ) ;
#53 = DATE_TIME_ROLE ( 'classification_date' ) ;
#54 = ORIENTED_EDGE ( 'NONE', *, *, #6, .T. ) ;
#55 = CARTESIAN_POINT ( 'NONE',  ( 5000.000000000000000, 600.0000000000001100, 3.000000000000000000 ) ) ;
#56 = DIRECTION ( 'NONE',  ( 0.0000000000000000000, 1.000000000000000000, 0.0000000000000000000 ) ) ;
#57 = VERTEX_POINT ( 'NONE', #133 ) ;
#58 = DIRECTION ( 'NONE',  ( 0.0000000000000000000, 0.0000000000000000000, 1.000000000000000000 ) ) ;
#59 = CC_DESIGN_PERSON_AND_ORGANIZATION_ASSIGNMENT ( #14, #196, ( #25 ) ) ;
#60 = EDGE_LOOP ( 'NONE', ( #189, #23, #121, #5 ) ) ;
#61 = CC_DESIGN_DATE_AND_TIME_ASSIGNMENT ( #120, #53, ( #223 ) ) ;
#62 = PERSON_AND_ORGANIZATION ( #226, #47 ) ;
#63 = ORIENTED_EDGE ( 'NONE', *, *, #236, .T. ) ;
#64 = DIRECTION ( 'NONE',  ( -1.000000000000000000, -0.0000000000000000000, 0.0000000000000000000 ) ) ;
#65 = EDGE_LOOP ( 'NONE', ( #199, #163, #54, #203 ) ) ;
#66 = EDGE_CURVE ( 'NONE', #220, #137, #175, .T. ) ;
#67 = APPROVAL_ROLE ( '' ) ;
#68 = COORDINATED_UNIVERSAL_TIME_OFFSET ( 8, 0, .BEHIND. ) ;
#69 = DIRECTION ( 'NONE',  ( 0.0000000000000000000, 0.0000000000000000000, 1.000000000000000000 ) ) ;
#70 = PLANE ( 'NONE',  #78 ) ;
#71 = DIRECTION ( 'NONE',  ( 0.0000000000000000000, -1.000000000000000000, 0.0000000000000000000 ) ) ;
#72 = AXIS2_PLACEMENT_3D ( 'NONE', #96, #22, #24 ) ;
#73 = DIRECTION ( 'NONE',  ( -0.0000000000000000000, -1.000000000000000000, 0.0000000000000000000 ) ) ;
#74 = DATE_AND_TIME ( #125, #31 ) ;
#75 = CARTESIAN_POINT ( 'NONE',  ( -5000.000000000000000, -599.9999999999998900, 0.0000000000000000000 ) ) ;
#76 = ORIENTED_EDGE ( 'NONE', *, *, #150, .T. ) ;
#77 = LINE ( 'NONE', #173, #100 ) ;
#78 = AXIS2_PLACEMENT_3D ( 'NONE', #130, #89, #86 ) ;
#79 = LINE ( 'NONE', #183, #45 ) ;
#80 = CC_DESIGN_PERSON_AND_ORGANIZATION_ASSIGNMENT ( #217, #182, ( #223 ) ) ;
#81 = CARTESIAN_POINT ( 'NONE',  ( -5000.000000000000000, -599.9999999999998900, 3.000000000000000000 ) ) ;
#82 = EDGE_CURVE ( 'NONE', #8, #116, #79, .T. ) ;
#83 = DIRECTION ( 'NONE',  ( 0.0000000000000000000, 1.000000000000000000, 0.0000000000000000000 ) ) ;
#84 = VECTOR ( 'NONE', #219, 1000.000000000000000 ) ;
#85 = CARTESIAN_POINT ( 'NONE',  ( -5000.000000000000000, 600.0000000000001100, 3.000000000000000000 ) ) ;
#86 = DIRECTION ( 'NONE',  ( -1.000000000000000000, 0.0000000000000000000, -0.0000000000000000000 ) ) ;
#87 = PERSON_AND_ORGANIZATION_ROLE ( 'design_owner' ) ;
#88 = FACE_OUTER_BOUND ( 'NONE', #65, .T. ) ;
#89 = DIRECTION ( 'NONE',  ( 0.0000000000000000000, 0.0000000000000000000, -1.000000000000000000 ) ) ;
#90 = APPROVAL_STATUS ( 'not_yet_approved' ) ;
#91 =( GEOMETRIC_REPRESENTATION_CONTEXT ( 3 ) GLOBAL_UNCERTAINTY_ASSIGNED_CONTEXT ( ( #42 ) ) GLOBAL_UNIT_ASSIGNED_CONTEXT ( ( #136, #234, #235 ) ) REPRESENTATION_CONTEXT ( 'NONE', 'WORKASPACE' ) );
#92 = COORDINATED_UNIVERSAL_TIME_OFFSET ( 8, 0, .BEHIND. ) ;
#93 = LINE ( 'NONE', #184, #227 ) ;
#94 = MECHANICAL_CONTEXT ( 'NONE', #178, 'mechanical' ) ;
#95 = DIRECTION ( 'NONE',  ( 1.000000000000000000, -0.0000000000000000000, 0.0000000000000000000 ) ) ;
#96 = CARTESIAN_POINT ( 'NONE',  ( -5000.000000000000000, -599.9999999999998900, 3.000000000000000000 ) ) ;
#97 = APPROVAL ( #129, 'UNSPECIFIED' ) ;
#98 = VECTOR ( 'NONE', #151, 1000.000000000000000 ) ;
#99 = AXIS2_PLACEMENT_3D ( 'NONE', #149, #69, #233 ) ;
#100 = VECTOR ( 'NONE', #213, 1000.000000000000000 ) ;
#101 = ORIENTED_EDGE ( 'NONE', *, *, #143, .T. ) ;
#102 = ADVANCED_FACE ( 'NONE', ( #27 ), #113, .T. ) ;
#103 = CC_DESIGN_APPROVAL ( #97, ( #223 ) ) ;
#104 = LINE ( 'NONE', #231, #191 ) ;
#105 = CARTESIAN_POINT ( 'NONE',  ( 5000.000000000000000, 600.0000000000001100, 0.0000000000000000000 ) ) ;
#106 = CARTESIAN_POINT ( 'NONE',  ( 5000.000000000000000, 0.0000000000000000000, 3.000000000000000000 ) ) ;
#107 = EDGE_CURVE ( 'NONE', #209, #8, #126, .T. ) ;
#108 = APPROVAL_PERSON_ORGANIZATION ( #7, #159, #198 ) ;
#109 = APPROVAL_ROLE ( '' ) ;
#110 = VECTOR ( 'NONE', #64, 1000.000000000000000 ) ;
#111 = EDGE_LOOP ( 'NONE', ( #2, #63, #177, #13 ) ) ;
#112 = DIRECTION ( 'NONE',  ( -0.0000000000000000000, -1.000000000000000000, -0.0000000000000000000 ) ) ;
#113 = PLANE ( 'NONE',  #154 ) ;
#114 = APPROVAL_DATE_TIME ( #28, #159 ) ;
#115 = ORIENTED_EDGE ( 'NONE', *, *, #122, .F. ) ;
#116 = VERTEX_POINT ( 'NONE', #168 ) ;
#117 = PRODUCT ( '700970_c_1', '700970_c_1', '', ( #94 ) ) ;
#118 = EDGE_LOOP ( 'NONE', ( #51, #170, #76, #164 ) ) ;
#119 = CC_DESIGN_DATE_AND_TIME_ASSIGNMENT ( #74, #40, ( #25 ) ) ;
#120 = DATE_AND_TIME ( #205, #171 ) ;
#121 = ORIENTED_EDGE ( 'NONE', *, *, #66, .F. ) ;
#122 = EDGE_CURVE ( 'NONE', #127, #209, #232, .T. ) ;
#123 = ADVANCED_FACE ( 'NONE', ( #141 ), #21, .F. ) ;
#124 = APPROVAL_PERSON_ORGANIZATION ( #131, #97, #109 ) ;
#125 = CALENDAR_DATE ( 2023, 11, 5 ) ;
#126 = LINE ( 'NONE', #41, #84 ) ;
#127 = VERTEX_POINT ( 'NONE', #75 ) ;
#128 = DIRECTION ( 'NONE',  ( 0.0000000000000000000, -0.0000000000000000000, -1.000000000000000000 ) ) ;
#129 = APPROVAL_STATUS ( 'not_yet_approved' ) ;
#130 = CARTESIAN_POINT ( 'NONE',  ( 0.0000000000000000000, 0.0000000000000000000, 3.000000000000000000 ) ) ;
#131 = PERSON_AND_ORGANIZATION ( #226, #47 ) ;
#132 = DIRECTION ( 'NONE',  ( 0.0000000000000000000, -0.0000000000000000000, -1.000000000000000000 ) ) ;
#133 = CARTESIAN_POINT ( 'NONE',  ( -5000.000000000000000, 600.0000000000001100, 3.000000000000000000 ) ) ;
#134 = LINE ( 'NONE', #156, #32 ) ;
#135 = APPLICATION_PROTOCOL_DEFINITION ( 'international standard', 'config_control_design', 1994, #18 ) ;
#136 =( LENGTH_UNIT ( ) NAMED_UNIT ( * ) SI_UNIT ( .MILLI., .METRE. ) );
#137 = VERTEX_POINT ( 'NONE', #43 ) ;
#138 = CARTESIAN_POINT ( 'NONE',  ( -5000.000000000000000, -599.9999999999998900, 0.0000000000000000000 ) ) ;
#139 = DATE_AND_TIME ( #166, #186 ) ;
#140 = EDGE_CURVE ( 'NONE', #57, #228, #93, .T. ) ;
#141 = FACE_OUTER_BOUND ( 'NONE', #19, .T. ) ;
#142 = EDGE_CURVE ( 'NONE', #116, #220, #134, .T. ) ;
#143 = EDGE_CURVE ( 'NONE', #57, #209, #179, .T. ) ;
#144 = ORIENTED_EDGE ( 'NONE', *, *, #107, .T. ) ;
#145 = DIRECTION ( 'NONE',  ( 0.0000000000000000000, 0.0000000000000000000, 1.000000000000000000 ) ) ;
#146 = ORIENTED_EDGE ( 'NONE', *, *, #82, .T. ) ;
#147 = CC_DESIGN_SECURITY_CLASSIFICATION ( #223, ( #30 ) ) ;
#148 = CARTESIAN_POINT ( 'NONE',  ( -5000.000000000000000, 600.0000000000001100, 0.0000000000000000000 ) ) ;
#149 = CARTESIAN_POINT ( 'NONE',  ( 0.0000000000000000000, 0.0000000000000000000, 0.0000000000000000000 ) ) ;
#150 = EDGE_CURVE ( 'NONE', #137, #127, #77, .T. ) ;
#151 = DIRECTION ( 'NONE',  ( -1.000000000000000000, 0.0000000000000000000, -0.0000000000000000000 ) ) ;
#152 = FACE_OUTER_BOUND ( 'NONE', #60, .T. ) ;
#153 = DIRECTION ( 'NONE',  ( -1.000000000000000000, 0.0000000000000000000, -0.0000000000000000000 ) ) ;
#154 = AXIS2_PLACEMENT_3D ( 'NONE', #181, #1, #153 ) ;
#155 = DESIGN_CONTEXT ( 'detailed design', #18, 'design' ) ;
#156 = CARTESIAN_POINT ( 'NONE',  ( 5000.000000000000000, -599.9999999999998900, 3.000000000000000000 ) ) ;
#157 = SHAPE_DEFINITION_REPRESENTATION ( #39, #230 ) ;
#158 = APPROVAL_PERSON_ORGANIZATION ( #215, #36, #67 ) ;
#159 = APPROVAL ( #90, 'UNSPECIFIED' ) ;
#160 = APPROVAL_DATE_TIME ( #139, #97 ) ;
#161 = ADVANCED_FACE ( 'NONE', ( #207 ), #49, .F. ) ;
#162 = APPROVAL_DATE_TIME ( #194, #36 ) ;
#163 = ORIENTED_EDGE ( 'NONE', *, *, #140, .T. ) ;
#164 = ORIENTED_EDGE ( 'NONE', *, *, #180, .F. ) ;
#165 = CARTESIAN_POINT ( 'NONE',  ( -5000.000000000000000, 600.0000000000001100, 3.000000000000000000 ) ) ;
#166 = CALENDAR_DATE ( 2023, 11, 5 ) ;
#167 = CLOSED_SHELL ( 'NONE', ( #10, #37, #190, #123, #161, #102 ) ) ;
#168 = CARTESIAN_POINT ( 'NONE',  ( 5000.000000000000000, -599.9999999999998900, 0.0000000000000000000 ) ) ;
#169 = VECTOR ( 'NONE', #15, 1000.000000000000000 ) ;
#170 = ORIENTED_EDGE ( 'NONE', *, *, #66, .T. ) ;
#171 = LOCAL_TIME ( 20, 56, 18.00000000000000000, #92 ) ;
#172 = ORIENTED_EDGE ( 'NONE', *, *, #122, .T. ) ;
#173 = CARTESIAN_POINT ( 'NONE',  ( -5000.000000000000000, -599.9999999999998900, 3.000000000000000000 ) ) ;
#174 = COORDINATED_UNIVERSAL_TIME_OFFSET ( 8, 0, .BEHIND. ) ;
#175 = LINE ( 'NONE', #202, #98 ) ;
#176 = PLANE ( 'NONE',  #197 ) ;
#177 = ORIENTED_EDGE ( 'NONE', *, *, #142, .F. ) ;
#178 = APPLICATION_CONTEXT ( 'configuration controlled 3d designs of mechanical parts and assemblies' ) ;
#179 = LINE ( 'NONE', #85, #38 ) ;
#180 = EDGE_CURVE ( 'NONE', #116, #127, #216, .T. ) ;
#181 = CARTESIAN_POINT ( 'NONE',  ( 0.0000000000000000000, 0.0000000000000000000, 0.0000000000000000000 ) ) ;
#182 = PERSON_AND_ORGANIZATION_ROLE ( 'classification_officer' ) ;
#183 = CARTESIAN_POINT ( 'NONE',  ( 5000.000000000000000, -599.9999999999998900, 0.0000000000000000000 ) ) ;
#184 = CARTESIAN_POINT ( 'NONE',  ( 0.0000000000000000000, 600.0000000000001100, 3.000000000000000000 ) ) ;
#185 = EDGE_CURVE ( 'NONE', #137, #57, #12, .T. ) ;
#186 = LOCAL_TIME ( 20, 56, 18.00000000000000000, #26 ) ;
#187 = LOCAL_TIME ( 20, 56, 18.00000000000000000, #68 ) ;
#188 = ORIENTED_EDGE ( 'NONE', *, *, #180, .T. ) ;
#189 = ORIENTED_EDGE ( 'NONE', *, *, #140, .F. ) ;
#190 = ADVANCED_FACE ( 'NONE', ( #88 ), #176, .F. ) ;
#191 = VECTOR ( 'NONE', #35, 1000.000000000000000 ) ;
#192 = CARTESIAN_POINT ( 'NONE',  ( -5000.000000000000000, 0.0000000000000000000, 3.000000000000000000 ) ) ;
#193 = CARTESIAN_POINT ( 'NONE',  ( -5000.000000000000000, -599.9999999999998900, 0.0000000000000000000 ) ) ;
#194 = DATE_AND_TIME ( #206, #187 ) ;
#195 = PERSON_AND_ORGANIZATION_ROLE ( 'design_supplier' ) ;
#196 = PERSON_AND_ORGANIZATION_ROLE ( 'creator' ) ;
#197 = AXIS2_PLACEMENT_3D ( 'NONE', #165, #71, #132 ) ;
#198 = APPROVAL_ROLE ( '' ) ;
#199 = ORIENTED_EDGE ( 'NONE', *, *, #143, .F. ) ;
#200 = CARTESIAN_POINT ( 'NONE',  ( 5000.000000000000000, -599.9999999999998900, 3.000000000000000000 ) ) ;
#201 = CARTESIAN_POINT ( 'NONE',  ( 5000.000000000000000, -599.9999999999998900, 3.000000000000000000 ) ) ;
#202 = CARTESIAN_POINT ( 'NONE',  ( 0.0000000000000000000, -599.9999999999998900, 3.000000000000000000 ) ) ;
#203 = ORIENTED_EDGE ( 'NONE', *, *, #107, .F. ) ;
#204 = CC_DESIGN_PERSON_AND_ORGANIZATION_ASSIGNMENT ( #3, #195, ( #30 ) ) ;
#205 = CALENDAR_DATE ( 2023, 11, 5 ) ;
#206 = CALENDAR_DATE ( 2023, 11, 5 ) ;
#207 = FACE_OUTER_BOUND ( 'NONE', #118, .T. ) ;
#208 = MANIFOLD_SOLID_BREP ( 'NONE', #167 ) ;
#209 = VERTEX_POINT ( 'NONE', #148 ) ;
#210 = COORDINATED_UNIVERSAL_TIME_OFFSET ( 8, 0, .BEHIND. ) ;
#211 = EDGE_LOOP ( 'NONE', ( #172, #144, #146, #188 ) ) ;
#212 = DIRECTION ( 'NONE',  ( 0.0000000000000000000, -0.0000000000000000000, 1.000000000000000000 ) ) ;
#213 = DIRECTION ( 'NONE',  ( 0.0000000000000000000, 0.0000000000000000000, -1.000000000000000000 ) ) ;
#214 = AXIS2_PLACEMENT_3D ( 'NONE', #201, #221, #58 ) ;
#215 = PERSON_AND_ORGANIZATION ( #226, #47 ) ;
#216 = LINE ( 'NONE', #193, #110 ) ;
#217 = PERSON_AND_ORGANIZATION ( #226, #47 ) ;
#218 = APPLICATION_PROTOCOL_DEFINITION ( 'international standard', 'config_control_design', 1994, #178 ) ;
#219 = DIRECTION ( 'NONE',  ( 1.000000000000000000, 0.0000000000000000000, 0.0000000000000000000 ) ) ;
#220 = VERTEX_POINT ( 'NONE', #200 ) ;
#221 = DIRECTION ( 'NONE',  ( -1.000000000000000000, 0.0000000000000000000, 0.0000000000000000000 ) ) ;
#222 = LINE ( 'NONE', #106, #4 ) ;
#223 = SECURITY_CLASSIFICATION ( '', '', #20 ) ;
#224 = LOCAL_TIME ( 20, 56, 18.00000000000000000, #174 ) ;
#225 = FACE_OUTER_BOUND ( 'NONE', #111, .T. ) ;
#226 = PERSON ( 'UNSPECIFIED', 'UNSPECIFIED', 'UNSPECIFIED', ('UNSPECIFIED'), ('UNSPECIFIED'), ('UNSPECIFIED') ) ;
#227 = VECTOR ( 'NONE', #95, 1000.000000000000000 ) ;
#228 = VERTEX_POINT ( 'NONE', #55 ) ;
#229 = APPROVAL_STATUS ( 'not_yet_approved' ) ;
#230 = ADVANCED_BREP_SHAPE_REPRESENTATION ( '700970_c_1', ( #208, #99 ), #91 ) ;
#231 = CARTESIAN_POINT ( 'NONE',  ( 5000.000000000000000, 600.0000000000001100, 3.000000000000000000 ) ) ;
#232 = LINE ( 'NONE', #138, #17 ) ;
#233 = DIRECTION ( 'NONE',  ( 1.000000000000000000, 0.0000000000000000000, 0.0000000000000000000 ) ) ;
#234 =( NAMED_UNIT ( * ) PLANE_ANGLE_UNIT ( ) SI_UNIT ( $, .RADIAN. ) );
#235 =( NAMED_UNIT ( * ) SI_UNIT ( $, .STERADIAN. ) SOLID_ANGLE_UNIT ( ) );
#236 = EDGE_CURVE ( 'NONE', #228, #220, #222, .T. ) ;
#237 = PERSON_AND_ORGANIZATION_ROLE ( 'creator' ) ;
ENDSEC;
END-ISO-10303-21;
